0
SECTION
2
HEADER
9
$INSUNITS
70
4
9
$ACADVER
1
AC1014
9
$HANDSEED
5
FFFF
0
ENDSEC
0
SECTION
2
TABLES
0
TABLE
2
VPORT
5
8
100
AcDbSymbolTable
0
ENDTAB
0
TABLE
2
LTYPE
5
5
100
AcDbSymbolTable
0
LTYPE
5
14
100
AcDbSymbolTableRecord
100
AcDbLinetypeTableRecord
2
BYBLOCK
70
0
0
LTYPE
5
15
100
AcDbSymbolTableRecord
100
AcDbLinetypeTableRecord
2
BYLAYER
70
0
0
ENDTAB
0
TABLE
2
LAYER
5
2
100
AcDbSymbolTable
70
2
0
LAYER
5
50
100
AcDbSymbolTableRecord
100
AcDbLayerTableRecord
2
0
70
0
6
CONTINUOUS
0
ENDTAB
0
TABLE
2
STYLE
5
3
100
AcDbSymbolTable
70
1
0
STYLE
5
11
100
AcDbSymbolTableRecord
100
AcDbTextStyleTableRecord
2
STANDARD
70
0
0
ENDTAB
0
TABLE
2
VIEW
5
6
100
AcDbSymbolTable
70
0
0
ENDTAB
0
TABLE
2
UCS
5
7
100
AcDbSymbolTable
70
0
0
ENDTAB
0
TABLE
2
APPID
5
9
100
AcDbSymbolTable
70
2
0
APPID
5
12
100
AcDbSymbolTableRecord
100
AcDbRegAppTableRecord
2
ACAD
70
0
0
ENDTAB
0
TABLE
2
DIMSTYLE
5
A
100
AcDbSymbolTable
70
1
0
ENDTAB
0
TABLE
2
BLOCK_RECORD
5
1
100
AcDbSymbolTable
70
1
0
BLOCK_RECORD
5
1F
100
AcDbSymbolTableRecord
100
AcDbBlockTableRecord
2
*MODEL_SPACE
0
BLOCK_RECORD
5
1B
100
AcDbSymbolTableRecord
100
AcDbBlockTableRecord
2
*PAPER_SPACE
0
ENDTAB
0
ENDSEC
0
SECTION
2
BLOCKS
0
BLOCK
5
20
100
AcDbEntity
100
AcDbBlockBegin
2
*MODEL_SPACE
0
ENDBLK
5
21
100
AcDbEntity
100
AcDbBlockEnd
0
BLOCK
5
1C
100
AcDbEntity
100
AcDbBlockBegin
2
*PAPER_SPACE
0
ENDBLK
5
1D
100
AcDbEntity
100
AcDbBlockEnd
0
ENDSEC
0
SECTION
2
ENTITIES
0
LWPOLYLINE
5
100
100
AcDbEntity
8
0
100
AcDbPolyline
90
4
70
1
43
0.0
10
-653.00056537704052
20
1489.6083876061925
10
-656.20056537704045
20
1489.6083876061925
10
-656.20056537704045
20
1519.6083876061925
10
-653.00056537704052
20
1519.6083876061925
0
LWPOLYLINE
5
101
100
AcDbEntity
8
0
100
AcDbPolyline
90
4
70
1
43
0.0
10
-653.00056537704052
20
1653.0771376061925
10
-656.20056537704045
20
1653.0771376061925
10
-656.20056537704045
20
1683.0771376061925
10
-653.00056537704052
20
1683.0771376061925
0
LWPOLYLINE
5
102
100
AcDbEntity
8
0
100
AcDbPolyline
90
4
70
1
43
0.0
10
-373.00056537704046
20
1653.0771376061925
10
-376.20056537704045
20
1653.0771376061925
10
-376.20056537704045
20
1683.0771376061925
10
-373.00056537704046
20
1683.0771376061925
0
LWPOLYLINE
5
103
100
AcDbEntity
8
0
100
AcDbPolyline
90
4
70
1
43
0.0
10
-373.00056537704046
20
1489.6083876061925
10
-376.20056537704045
20
1489.6083876061925
10
-376.20056537704045
20
1519.6083876061925
10
-373.00056537704046
20
1519.6083876061925
0
LWPOLYLINE
5
104
100
AcDbEntity
8
0
100
AcDbPolyline
90
8
70
1
43
0.0
10
-116.20056537704045
20
1753.0771376061925
10
-916.20056537704045
20
1753.0771376061925
10
-916.20056537704045
20
1552.6083876061925
10
-845.20056537704068
20
1552.6083876061925
10
-845.20056537704079
20
1422.6083876061925
10
-187.20056537704025
20
1422.6083876061925
10
-187.20056537704025
20
1552.6083876061925
10
-116.20056537704038
20
1552.6083876061925
0
LWPOLYLINE
5
105
100
AcDbEntity
8
0
100
AcDbPolyline
90
4
70
1
43
0.0
10
9.1157589641408876
20
1587.0600873133849
10
9.1157589641408876
20
1583.8600873133851
10
-20.884241035859112
20
1583.8600873133851
10
-20.884241035859112
20
1587.0600873133849
0
LWPOLYLINE
5
106
100
AcDbEntity
8
0
100
AcDbPolyline
90
4
70
1
43
0.0
10
109.11575896414089
20
1587.0600873133849
10
109.11575896414089
20
1583.8600873133851
10
79.115758964140895
20
1583.8600873133851
10
79.115758964140895
20
1587.0600873133849
0
LWPOLYLINE
5
107
100
AcDbEntity
8
0
100
AcDbPolyline
90
4
70
1
43
0.0
10
193.2797950653943
20
1587.0600873133849
10
193.2797950653943
20
1583.8600873133851
10
163.2797950653943
20
1583.8600873133851
10
163.2797950653943
20
1587.0600873133849
0
LWPOLYLINE
5
108
100
AcDbEntity
8
0
100
AcDbPolyline
90
4
70
1
43
0.0
10
79.115758964140909
20
1387.0600873133849
10
79.115758964140909
20
1383.8600873133851
10
49.115758964140923
20
1383.8600873133851
10
49.115758964140923
20
1387.0600873133849
0
LWPOLYLINE
5
109
100
AcDbEntity
8
0
100
AcDbPolyline
90
4
70
1
43
0.0
10
172.78123094266431
20
1387.0600873133849
10
172.78123094266431
20
1383.8600873133851
10
142.78123094266431
20
1383.8600873133851
10
142.78123094266431
20
1387.0600873133849
0
LWPOLYLINE
5
110
100
AcDbEntity
8
0
100
AcDbPolyline
90
4
70
1
43
0.0
10
9.1157589641409231
20
1387.0600873133849
10
9.1157589641409231
20
1383.8600873133851
10
-20.884241035859077
20
1383.8600873133851
10
-20.884241035859077
20
1387.0600873133849
0
LWPOLYLINE
5
111
100
AcDbEntity
8
0
100
AcDbPolyline
90
64
70
1
43
0.0
10
-90.884241035859048
20
1557.8600873133851
10
-93.884241035859048
20
1557.8600873133851
10
-93.884241035859048
20
1527.8600873133851
10
-90.884241035859077
20
1527.8600873133851
10
-90.884241035859063
20
1477.6338072466704
42
-0.85972695362109597
10
-90.884241035859091
20
1438.0863673801
10
-90.884241035859063
20
1387.8600873133851
10
-93.884241035859048
20
1387.8600873133848
10
-93.884241035859048
20
1357.8600873133851
10
-90.884241035859091
20
1357.8600873133848
10
-90.884241035859063
20
1264.8600873133851
10
-93.884241035859048
20
1264.8600873133851
10
-93.884241035859048
20
1234.8600873133851
10
-90.884241035859091
20
1234.8600873133851
10
-90.884241035859063
20
1184.6338072466701
42
-0.37076998161914171
10
-73.884241035859048
20
1164.8600873133851
10
-43.884241035859084
20
1164.8600873133851
10
-43.884241035859048
20
1161.8600873133851
10
-13.884241035859084
20
1161.8600873133851
10
-13.884241035859048
20
1164.8600873133851
10
96.115758964140923
20
1164.8600873133851
10
96.115758964140952
20
1161.8600873133851
10
126.11575896414092
20
1161.8600873133851
10
126.11575896414095
20
1164.8600873133851
10
157.04575896414082
20
1164.8600873133851
42
-0.50526470725306272
10
182.96773438642251
20
1183.9632338368742
10
197.77267294212658
20
1231.7211001455967
10
200.63814492064995
20
1230.8328038322545
10
209.5211080540723
20
1259.4875236174883
10
206.65563607554898
20
1260.3758199308304
10
219.65477125300009
20
1302.3085140516403
42
-0.99999999999999989
10
225.57674667528173
20
1321.4116605751294
10
239.50588185273284
20
1366.3443546959397
10
242.37135383125627
20
1365.4560583825973
10
251.25431696467859
20
1394.1107781678309
10
248.38884498615528
20
1394.999074481173
10
266.15477125300004
20
1452.30851405164
42
-0.85995779540151396
10
269.11575896414092
20
1471.8600873133851
10
269.11575896414092
20
1496.8601435424653
10
272.11575896414092
20
1496.8601435424653
10
272.11575896414092
20
1526.8601132652666
10
269.11575896414092
20
1526.8601132652666
10
269.11575896414098
20
1551.8600873133851
42
-0.92535663587120731
10
267.57199016140481
20
1571.7402076508961
10
255.02219699150189
20
1652.0588839382751
10
257.98623309275513
20
1652.5220145790956
10
253.35492668454685
20
1682.1623755916289
10
250.39089058329358
20
1681.699244950808
10
242.67204656961314
20
1731.099846638363
42
-0.46037507567612751
10
219.58450896414095
20
1750.8600873133853
10
169.58450896414092
20
1750.8600873133853
10
169.58450896414092
20
1753.8600873133851
10
139.58450896414092
20
1753.8600873133851
10
139.58450896414095
20
1750.8600873133853
10
6.1157589641409178
20
1750.8600873133851
10
6.1157589641409249
20
1753.8600873133851
10
-23.884241035859084
20
1753.8600873133851
10
-23.884241035859048
20
1750.8600873133853
10
-73.884241035858778
20
1750.8600873133853
42
-0.37076998161914254
10
-90.884241035859077
20
1731.0863673800998
10
-90.884241035859048
20
1680.8600873133853
10
-93.884241035859048
20
1680.8600873133851
10
-93.884241035859048
20
1650.8600873133853
10
-90.884241035859077
20
1650.8600873133851
0
LWPOLYLINE
5
112
100
AcDbEntity
8
0
100
AcDbPolyline
90
4
70
1
43
0.0
10
381.62201557156351
20
1581.0996564824916
10
381.62201557156351
20
1584.2996564824919
10
411.62201557156351
20
1584.2996564824919
10
411.62201557156351
20
1581.0996564824916
0
LWPOLYLINE
5
113
100
AcDbEntity
8
0
100
AcDbPolyline
90
4
70
1
43
0.0
10
392.1205796942935
20
1384.2996564824919
10
392.1205796942935
20
1381.0996564824916
10
362.1205796942935
20
1381.0996564824916
10
362.1205796942935
20
1384.2996564824919
0
LWPOLYLINE
5
114
100
AcDbEntity
8
0
100
AcDbPolyline
90
6
70
1
43
0.0
10
305.78605167281688
20
1459.0996564824918
10
356.31605167281685
20
1296.0996564824918
10
535.78605167281694
20
1296.0996564824918
10
535.78605167281694
20
1748.099656482492
10
335.31730167281694
20
1748.099656482492
10
305.78605167281694
20
1559.099656482492
0
LWPOLYLINE
5
115
100
AcDbEntity
8
0
100
AcDbPolyline
90
4
70
1
43
0.0
10
762.66088170209741
20
1686.3809489751711
10
765.86088170209734
20
1686.3809489751711
10
765.86088170209734
20
1656.3809489751711
10
762.66088170209741
20
1656.3809489751711
0
LWPOLYLINE
5
116
100
AcDbEntity
8
0
100
AcDbPolyline
90
4
70
1
43
0.0
10
762.66088170209741
20
1563.3809489751709
10
765.86088170209734
20
1563.3809489751709
10
765.86088170209734
20
1533.3809489751709
10
762.66088170209741
20
1533.3809489751709
0
LWPOLYLINE
5
117
100
AcDbEntity
8
0
100
AcDbPolyline
90
4
70
1
43
0.0
10
762.66088170209741
20
1270.3809489751709
10
765.86088170209734
20
1270.3809489751709
10
765.86088170209734
20
1240.3809489751709
10
762.66088170209741
20
1240.3809489751709
0
LWPOLYLINE
5
118
100
AcDbEntity
8
0
100
AcDbPolyline
90
4
70
1
43
0.0
10
762.66088170209741
20
1393.3809489751709
10
765.86088170209734
20
1393.3809489751709
10
765.86088170209734
20
1363.3809489751709
10
762.66088170209741
20
1363.3809489751709
0
LWPOLYLINE
5
119
100
AcDbEntity
8
0
100
AcDbPolyline
90
4
70
1
43
0.0
10
1042.6608817020974
20
1563.3809489751709
10
1045.8608817020972
20
1563.3809489751709
10
1045.8608817020972
20
1533.3809489751709
10
1042.6608817020974
20
1533.3809489751709
0
LWPOLYLINE
5
120
100
AcDbEntity
8
0
100
AcDbPolyline
90
4
70
1
43
0.0
10
1042.6608817020974
20
1393.3809489751709
10
1045.8608817020972
20
1393.3809489751709
10
1045.8608817020972
20
1363.3809489751709
10
1042.6608817020974
20
1363.3809489751709
0
LWPOLYLINE
5
121
100
AcDbEntity
8
0
100
AcDbPolyline
90
4
70
1
43
0.0
10
1042.6608817020974
20
1686.3809489751711
10
1045.8608817020972
20
1686.3809489751711
10
1045.8608817020972
20
1656.3809489751711
10
1042.6608817020974
20
1656.3809489751711
0
LWPOLYLINE
5
122
100
AcDbEntity
8
0
100
AcDbPolyline
90
4
70
1
43
0.0
10
1042.6608817020974
20
1270.3809489751709
10
1045.8608817020972
20
1270.3809489751709
10
1045.8608817020972
20
1240.3809489751709
10
1042.6608817020974
20
1240.3809489751709
0
LWPOLYLINE
5
123
100
AcDbEntity
8
0
100
AcDbPolyline
90
8
70
1
43
0.0
10
836.16088170209741
20
1208.3809489751709
10
969.16088170209741
20
1208.3809489751709
10
969.16088170209741
20
1170.3809489751709
10
1231.6608817020976
20
1170.3809489751709
10
1231.6608817020979
20
1756.3809489751711
10
573.6608817020973
20
1756.3809489751711
10
573.6608817020973
20
1170.3809489751709
10
836.16088170209753
20
1170.3809489751709
0
LWPOLYLINE
5
124
100
AcDbEntity
8
0
100
AcDbPolyline
90
4
70
1
43
0.0
10
1144.8962339124123
20
949.40056537704038
10
1144.8962339124123
20
946.20056537704045
10
1114.8962339124123
20
946.20056537704045
10
1114.8962339124123
20
949.40056537704038
0
LWPOLYLINE
5
125
100
AcDbEntity
8
0
100
AcDbPolyline
90
4
70
1
43
0.0
10
1164.3976697896821
20
749.40056537704038
10
1164.3976697896821
20
746.20056537704045
10
1134.3976697896821
20
746.20056537704045
10
1134.3976697896821
20
749.40056537704038
0
LWPOLYLINE
5
126
100
AcDbEntity
8
0
100
AcDbPolyline
90
6
70
1
43
0.0
10
1170.2021978111588
20
661.20056537704045
10
1220.7321978111588
20
824.20056537704022
10
1220.7321978111588
20
924.20056537704045
10
1191.2009478111588
20
1113.2005653770407
10
990.73219781115881
20
1113.2005653770404
10
990.73219781115881
20
661.20056537704045
0
LWPOLYLINE
5
127
100
AcDbEntity
8
0
100
AcDbPolyline
90
27
70
1
43
0.0
10
905.93004365669253
20
954.83166428261984
10
905.93004365669253
20
941.83166428261984
10
908.93004365669253
20
941.83166428261984
10
908.93004365669276
20
921.83166428261984
10
905.93004365669276
20
921.83166428261984
42
0.99999999999999989
10
905.93004365669253
20
841.83166428261984
10
905.93004365669253
20
824.83166428261984
10
739.93004365669253
20
824.83166428261984
42
0.41421356237309503
10
719.93004365669253
20
844.83166428261984
10
719.93004365669253
20
964.83166428261984
10
716.93004365669253
20
964.83166428261984
10
716.93004365669253
20
994.83166428261984
10
719.93004365669253
20
994.83166428261984
10
719.93004365669253
20
1113.4885782606054
10
720.13004365669246
20
1113.4885782606054
10
720.13004365669246
20
1125.2370133725512
10
719.93004365669253
20
1125.2370133725512
10
719.93004365669253
20
1155.2217871712119
10
720.13004365669246
20
1155.2217871712116
10
720.13004365669246
20
1158.4971362611432
10
973.93004365669253
20
1158.4971362611432
10
973.93004365669253
20
1128.4971362611432
10
976.93004365669265
20
1128.4971362611432
10
976.93004365669253
20
1098.4971362611432
10
973.93004365669253
20
1098.4971362611432
10
973.93004365669253
20
974.83166428261984
42
0.41421356237309503
10
953.93004365669253
20
954.83166428261984
0
LWPOLYLINE
5
128
100
AcDbEntity
8
0
100
AcDbPolyline
90
22
70
1
43
0.0
10
714.40918199490602
20
922.67183282455608
10
711.40918199490602
20
922.67183282455608
10
711.40918199490613
20
1093.7426766602155
10
714.40918199490602
20
1093.7426766602155
10
714.40918199490613
20
1111.3287468025417
10
711.40918199490602
20
1111.3287468025417
10
711.40918199490602
20
1156.3373048030794
10
434.60918199490601
20
1156.3373048030794
10
434.60918199490601
20
1111.3287468025417
10
431.40918199490602
20
1111.3287468025417
10
431.40918199490602
20
1093.7426766602155
10
434.60918199490601
20
1093.7426766602155
10
434.60918199490601
20
922.67183282455608
10
431.40918199490602
20
922.67183282455608
10
431.40918199490602
20
892.67183282455608
10
434.60918199490601
20
892.67183282455608
10
434.60918199490601
20
842.67183282455608
42
-0.41421356237309503
10
454.60918199490601
20
822.67183282455608
10
691.40918199490602
20
822.67183282455608
42
-0.41421356237309503
10
711.40918199490602
20
842.67183282455608
10
711.40918199490602
20
892.67183282455608
10
714.40918199490602
20
892.67183282455608
0
LWPOLYLINE
5
129
100
AcDbEntity
8
0
100
AcDbPolyline
90
4
70
1
43
0.0
10
419.08344664714616
20
818.54512273795672
10
419.08344664714627
20
1270.5451227379569
10
354.08344664714627
20
1270.5451227379567
10
354.08344664714627
20
818.54512273795694
0
LWPOLYLINE
5
130
100
AcDbEntity
8
0
100
AcDbPolyline
90
4
70
1
43
0.0
10
257.2221069217037
20
818.54512273795672
10
322.2221069217037
20
818.54512273795672
10
322.2221069217029
20
1270.5451227379569
10
257.22210692170381
20
1270.5451227379567
0
LWPOLYLINE
5
131
100
AcDbEntity
8
0
100
AcDbPolyline
90
4
70
1
43
0.0
10
-85.539750948016504
20
1117.0471623865867
10
-74.689750948016524
20
1082.0471623865867
10
193.24024905198354
20
1082.0471623865867
10
193.24024905198354
20
1117.0471623865867
0
LWPOLYLINE
5
132
100
AcDbEntity
8
0
100
AcDbPolyline
90
4
70
1
43
0.0
10
182.34655335285382
20
1007.5155299524687
10
193.19655335285381
20
1042.5155299524686
10
-85.583446647146175
20
1042.5155299524686
10
-85.583446647146175
20
1007.5155299524687
0
LWPOLYLINE
5
133
100
AcDbEntity
8
0
100
AcDbPolyline
90
4
70
1
43
0.0
10
-287.09489730235487
20
1080.2550755051939
10
-160.09489730235487
20
1080.2550755051939
10
-160.09489730235484
20
1359.9650755051939
10
-287.09489730235487
20
1359.9650755051939
0
LWPOLYLINE
5
134
100
AcDbEntity
8
0
100
AcDbPolyline
90
4
70
1
43
0.0
10
-401.2853717899398
20
1236.48537178994
10
-401.2853717899398
20
1233.28537178994
10
-431.2853717899398
20
1233.28537178994
10
-431.2853717899398
20
1236.48537178994
0
LWPOLYLINE
5
135
100
AcDbEntity
8
0
100
AcDbPolyline
90
4
70
1
43
0.0
10
-374.28537178993975
20
1033.28537178994
10
-374.28537178993975
20
1036.48537178994
10
-354.28537178993975
20
1036.48537178994
10
-354.28537178993975
20
1033.28537178994
0
CIRCLE
5
136
100
AcDbEntity
8
0
100
AcDbCircle
10
-415.0871676644233
20
1012.78537178994
30
0
40
30.749999999999993
0
LWPOLYLINE
5
137
100
AcDbEntity
8
0
100
AcDbPolyline
90
6
70
1
43
0.0
10
-203.35537178993971
20
814.28537178993997
10
-161.81537178993972
20
948.28537178993997
10
-344.28537178993975
20
948.28537178993997
10
-344.28537178993975
20
1400.2853717899397
10
-471.2853717899398
20
1400.2853717899402
10
-471.2853717899398
20
814.28537178993997
0
LWPOLYLINE
5
138
100
AcDbEntity
8
0
100
AcDbPolyline
90
4
70
1
43
0.0
10
-567.62584985359638
20
1233.28537178994
10
-567.62584985359638
20
1236.48537178994
10
-537.62584985359638
20
1236.4853717899402
10
-537.62584985359638
20
1233.2853717899402
0
LWPOLYLINE
5
139
100
AcDbEntity
8
0
100
AcDbPolyline
90
4
70
1
43
0.0
10
-547.62584985359604
20
1036.48537178994
10
-547.62584985359604
20
1033.28537178994
10
-577.62584985359604
20
1033.28537178994
10
-577.62584985359604
20
1036.48537178994
0
LWPOLYLINE
5
140
100
AcDbEntity
8
0
100
AcDbPolyline
90
6
70
1
43
0.0
10
-807.09584985359595
20
948.28537178993975
10
-765.55584985359576
20
814.28537178993963
10
-497.6258498535957
20
814.28537178994009
10
-497.62584985359666
20
1400.2853717899402
10
-624.62584985359672
20
1400.2853717899397
10
-624.62584985359581
20
948.28537178993997
0
LWPOLYLINE
5
141
100
AcDbEntity
8
0
100
AcDbPolyline
90
4
70
1
43
0.0
10
-719.69047448758579
20
1338.454984615739
10
-716.49047448758563
20
1338.454984615739
10
-716.49047448758563
20
1308.454984615739
10
-719.69047448758579
20
1308.454984615739
0
LWPOLYLINE
5
142
100
AcDbEntity
8
0
100
AcDbPolyline
90
4
70
1
43
0.0
10
-716.49047448758563
20
1168.454984615739
10
-719.69047448758579
20
1168.454984615739
10
-719.69047448758579
20
1198.454984615739
10
-716.49047448758563
20
1198.454984615739
0
LWPOLYLINE
5
143
100
AcDbEntity
8
0
100
AcDbPolyline
90
4
70
1
43
0.0
10
-908.69047448758579
20
1117.524984615739
10
-646.19047448758567
20
1117.524984615739
10
-646.19047448758579
20
1385.4549846157392
10
-908.69047448758579
20
1385.4549846157392
0
LWPOLYLINE
5
144
100
AcDbEntity
8
0
100
AcDbPolyline
90
4
70
1
43
0.0
10
-817.86949831996276
20
727.67970371525394
10
-814.66949831996294
20
727.67970371525394
10
-814.66949831996294
20
697.67970371525394
10
-817.86949831996276
20
697.67970371525394
0
LWPOLYLINE
5
145
100
AcDbEntity
8
0
100
AcDbPolyline
90
4
70
1
43
0.0
10
-814.66949831996294
20
557.67970371525405
10
-817.86949831996276
20
557.67970371525405
10
-817.86949831996276
20
587.67970371525405
10
-814.66949831996294
20
587.67970371525405
0
LWPOLYLINE
5
146
100
AcDbEntity
8
0
100
AcDbPolyline
90
6
70
1
43
0.0
10
-628.86949831996264
20
778.609703715254
10
-628.86949831996264
20
777.67970371525394
10
-628.86949831996264
20
510.67970371525405
10
-891.36949831996276
20
510.67970371525405
10
-891.36949831996276
20
777.67970371525405
10
-891.36949831996276
20
778.60970371525411
0
LWPOLYLINE
5
147
100
AcDbEntity
8
0
100
AcDbPolyline
90
4
70
1
43
0.0
10
-606.79274314788813
20
569.82478279651821
10
-541.79274314788802
20
569.82478279651821
10
-541.79274314788802
20
749.29478279651812
10
-606.79274314788802
20
749.29478279651812
0
LWPOLYLINE
5
148
100
AcDbEntity
8
0
100
AcDbPolyline
90
4
70
1
43
0.0
10
-512.69183425333893
20
575.34564445830495
10
-447.69183425333904
20
575.34564445830495
10
-447.69183425333904
20
754.81564445830497
10
-512.69183425333904
20
754.81564445830497
0
LWPOLYLINE
5
149
100
AcDbEntity
8
0
100
AcDbPolyline
90
21
70
1
43
0.0
10
122.24092893486019
20
965.0557736002628
10
-134.75907106513998
20
965.0557736002628
10
-134.75907106513998
20
935.0557736002628
10
-137.75907106513981
20
935.05577360026291
10
-137.75907106513981
20
905.05577360026291
10
-134.75907106513995
20
905.05577360026291
10
-134.75907106513989
20
781.39030162173958
42
-0.41421356237309503
10
-114.75907106513989
20
761.39030162173958
10
-66.759071065139963
20
761.39030162173958
10
-66.759071065139921
20
711.39030162173958
10
-69.759071065139736
20
711.39030162173958
10
-69.75907106513975
20
681.39030162173958
10
-66.759071065139935
20
681.39030162173958
10
-66.759071065139921
20
651.39030162173958
42
-0.41421356237309503
10
-46.759071065139928
20
631.39030162173958
10
102.24092893486028
20
631.39030162173947
42
-0.41421356237309503
10
122.24092893486019
20
651.39030162173935
10
122.24092893486019
20
771.39030162173958
10
125.44092893486021
20
771.39030162173935
10
125.44092893486021
20
801.39030162173958
10
122.24092893486019
20
801.39030162173935
0
LWPOLYLINE
5
150
100
AcDbEntity
8
0
100
AcDbPolyline
90
25
70
1
43
0.0
10
427.36473913982604
20
477.15684807990738
10
427.36473913982604
20
372.99281197865406
42
0.41421356237309503
10
407.36473913982604
20
352.99281197865406
10
359.36473913982616
20
352.99281197865406
10
359.36473913982616
20
292.99281197865406
10
362.36473913982616
20
292.99281197865412
10
362.36473913982616
20
262.99281197865406
10
359.36473913982616
20
262.99281197865406
10
359.36473913982616
20
242.99281197865409
42
0.41421356237309503
10
339.36473913982616
20
222.99281197865409
10
193.36473913982604
20
222.99281197865409
42
0.41421356237309398
10
173.3647391398261
20
242.99281197865406
10
173.36473913982604
20
392.99281197865406
10
170.36473913982604
20
392.99281197865406
10
170.36473913982604
20
422.99281197865406
10
173.36473913982604
20
422.99281197865406
10
173.36473913982604
20
567.23197969905993
10
173.56473913982603
20
567.23197969905993
10
173.56473913982603
20
568.899250006015
10
173.36473913982604
20
568.899250006015
10
173.36473913982604
20
577.15684807990738
10
427.36473913982604
20
577.15684807990738
10
427.36473913982604
20
507.15684807990738
10
430.36473913982616
20
507.15684807990738
10
430.36473913982616
20
477.15684807990738
0
LWPOLYLINE
5
151
100
AcDbEntity
8
0
100
AcDbPolyline
90
22
70
1
43
0.0
10
120
20
255.91798194937329
42
-0.41421356237309453
10
140
20
275.91798194937326
10
140
20
325.91798194937326
10
143
20
325.91798194937326
10
143
20
355.91798194937326
10
140
20
355.91798194937326
10
140
20
510.08201805062669
10
143
20
510.08201805062669
10
143
20
540.08201805062663
10
140
20
540.08201805062663
10
140
20
610.08201805062663
10
-136.80000000000001
20
610.08201805062663
10
-136.80000000000001
20
540.08201805062663
10
-140
20
540.08201805062663
10
-140
20
510.08201805062669
10
-136.80000000000001
20
510.08201805062669
10
-136.80000000000001
20
355.91798194937326
10
-140
20
355.91798194937326
10
-140
20
325.91798194937326
10
-136.80000000000001
20
325.91798194937326
10
-136.80000000000001
20
275.91798194937326
42
-0.41421356237309453
10
-116.8
20
255.91798194937329
0
LWPOLYLINE
5
152
100
AcDbEntity
8
0
100
AcDbPolyline
90
21
70
1
43
0.0
10
-441.16689329429215
20
353.46979616240105
42
-0.41421356237309503
10
-421.16689329429215
20
333.46979616240105
10
-373.16689329429215
20
333.46979616240105
10
-373.16689329429215
20
273.46979616240105
10
-376.16689329429198
20
273.46979616240111
10
-376.16689329429198
20
243.46979616240108
10
-373.16689329429215
20
243.46979616240108
10
-373.16689329429215
20
223.46979616240108
42
-0.41421356237309503
10
-353.16689329429215
20
203.46979616240108
10
-204.16689329429204
20
203.46979616240108
42
-0.41421356237309453
10
-184.16689329429204
20
223.46979616240105
10
-184.16689329429204
20
373.46979616240105
10
-180.96689329429205
20
373.46979616240105
10
-180.96689329429205
20
403.46979616240105
10
-184.16689329429204
20
403.46979616240105
10
-184.16689329429204
20
557.63383226365454
10
-441.16689329429221
20
557.63383226365443
10
-441.16689329429221
20
487.63383226365448
10
-444.16689329429204
20
487.63383226365443
10
-444.16689329429204
20
457.63383226365448
10
-441.16689329429221
20
457.63383226365448
0
LWPOLYLINE
5
153
100
AcDbEntity
8
0
100
AcDbPolyline
90
4
70
1
43
0.0
10
-700.8896800988731
20
300.25975094801652
10
-700.8896800988731
20
303.45975094801651
10
-670.8896800988731
20
303.45975094801651
10
-670.8896800988731
20
300.25975094801652
0
LWPOLYLINE
5
154
100
AcDbEntity
8
0
100
AcDbPolyline
90
4
70
1
43
0.0
10
-586.72564399761973
20
303.45975094801651
10
-586.72564399761973
20
300.25975094801652
10
-616.72564399761973
20
300.25975094801652
10
-616.72564399761973
20
303.45975094801651
0
LWPOLYLINE
5
155
100
AcDbEntity
8
0
100
AcDbPolyline
90
4
70
1
43
0.0
10
-770.8896800988731
20
303.45975094801651
10
-770.8896800988731
20
300.25975094801652
10
-800.8896800988731
20
300.25975094801652
10
-800.8896800988731
20
303.45975094801651
0
LWPOLYLINE
5
156
100
AcDbEntity
8
0
100
AcDbPolyline
90
4
70
1
43
0.0
10
-770.8896800988731
20
103.45975094801652
10
-770.8896800988731
20
100.25975094801652
10
-800.8896800988731
20
100.25975094801652
10
-800.8896800988731
20
103.45975094801652
0
LWPOLYLINE
5
157
100
AcDbEntity
8
0
100
AcDbPolyline
90
4
70
1
43
0.0
10
-730.8896800988731
20
100.25975094801652
10
-730.8896800988731
20
103.45975094801652
10
-700.8896800988731
20
103.45975094801652
10
-700.8896800988731
20
100.25975094801652
0
LWPOLYLINE
5
158
100
AcDbEntity
8
0
100
AcDbPolyline
90
4
70
1
43
0.0
10
-607.22420812034966
20
103.45975094801652
10
-607.22420812034966
20
100.25975094801652
10
-637.22420812034977
20
100.25975094801652
10
-637.22420812034977
20
103.45975094801652
0
LWPOLYLINE
5
159
100
AcDbEntity
8
0
100
AcDbPolyline
90
64
70
1
43
0.0
10
-870.8896800988731
20
274.25975094801657
10
-873.8896800988731
20
274.25975094801657
10
-873.8896800988731
20
244.25975094801657
10
-870.8896800988731
20
244.25975094801657
10
-870.88968009887321
20
194.03347088130172
42
-0.85972695362109652
10
-870.8896800988731
20
154.48603101473137
10
-870.8896800988731
20
104.25975094801655
10
-873.8896800988731
20
104.2597509480165
10
-873.8896800988731
20
74.259750948016546
10
-870.8896800988731
20
74.259750948016503
10
-870.8896800988731
20
-18.740249051983504
10
-873.8896800988731
20
-18.740249051983469
10
-873.8896800988731
20
-48.740249051983504
10
-870.8896800988731
20
-48.740249051983469
10
-870.8896800988731
20
-98.966529118698304
42
-0.37076998161914193
10
-853.8896800988731
20
-118.74024905198351
10
-823.8896800988731
20
-118.74024905198351
10
-823.8896800988731
20
-121.74024905198351
10
-793.8896800988731
20
-121.74024905198351
10
-793.8896800988731
20
-118.74024905198351
10
-683.8896800988731
20
-118.74024905198351
10
-683.8896800988731
20
-121.74024905198351
10
-653.8896800988731
20
-121.74024905198351
10
-653.8896800988731
20
-118.74024905198351
10
-622.95968009887315
20
-118.74024905198351
42
-0.50526470725306372
10
-597.03770467659149
20
-99.637102528494452
10
-582.2327661208875
20
-51.879236219771769
10
-579.36729414236413
20
-52.767532533114057
10
-570.48433100894169
20
-24.112812747880419
10
-573.34980298746495
20
-23.224516434538174
10
-560.3506678100141
20
18.708177686271924
42
-0.99999999999999989
10
-554.42869238773233
20
37.811324209761011
10
-540.49955721028118
20
82.744018330571095
10
-537.63408523175781
20
81.855722017228928
10
-528.75112209833537
20
110.51044180246258
10
-531.61659407685875
20
111.39873811580472
10
-513.85066781001387
20
168.70817768627194
42
-0.8599577954015134
10
-510.8896800988731
20
188.2597509480164
10
-510.8896800988731
20
213.25980717709697
10
-507.8896800988731
20
213.25980717709697
10
-507.8896800988731
20
243.25977689989793
10
-510.8896800988731
20
243.25977689989793
10
-510.88968009887304
20
268.25975094801652
42
-0.92535663587120998
10
-512.43344890160915
20
288.13987128552748
10
-524.98324207151211
20
368.45854757290647
10
-522.01920597025878
20
368.9216782137272
10
-526.65051237846717
20
398.56203922626037
10
-529.61454847972038
20
398.09890858543952
10
-537.33339249340088
20
447.4995102729946
42
-0.46037507567612712
10
-560.4209300988731
20
467.25975094801663
10
-610.4209300988731
20
467.25975094801663
10
-610.4209300988731
20
470.25975094801657
10
-640.4209300988731
20
470.25975094801657
10
-640.4209300988731
20
467.25975094801663
10
-773.8896800988731
20
467.25975094801663
10
-773.8896800988731
20
470.25975094801657
10
-803.8896800988731
20
470.25975094801657
10
-803.8896800988731
20
467.25975094801663
10
-853.8896800988731
20
467.25975094801663
42
-0.37076998161914193
10
-870.8896800988731
20
447.48603101473145
10
-870.8896800988731
20
397.25975094801663
10
-873.8896800988731
20
397.25975094801663
10
-873.8896800988731
20
367.25975094801663
10
-870.8896800988731
20
367.25975094801663
0
ENDSEC
0
SECTION
2
OBJECTS
0
DICTIONARY
5
C
100
AcDbDictionary
3
ACAD_GROUP
350
D
3
ACAD_MLINESTYLE
350
17
0
DICTIONARY
5
D
100
AcDbDictionary
0
DICTIONARY
5
1A
330
C
100
AcDbDictionary
0
DICTIONARY
5
17
100
AcDbDictionary
0
ENDSEC
0
EOF
