0
SECTION
2
HEADER
9
$INSUNITS
70
4
9
$ACADVER
1
AC1014
9
$HANDSEED
5
FFFF
0
ENDSEC
0
SECTION
2
TABLES
0
TABLE
2
VPORT
5
8
100
AcDbSymbolTable
0
ENDTAB
0
TABLE
2
LTYPE
5
5
100
AcDbSymbolTable
0
LTYPE
5
14
100
AcDbSymbolTableRecord
100
AcDbLinetypeTableRecord
2
BYBLOCK
70
0
0
LTYPE
5
15
100
AcDbSymbolTableRecord
100
AcDbLinetypeTableRecord
2
BYLAYER
70
0
0
ENDTAB
0
TABLE
2
LAYER
5
2
100
AcDbSymbolTable
70
2
0
LAYER
5
50
100
AcDbSymbolTableRecord
100
AcDbLayerTableRecord
2
0
70
0
6
CONTINUOUS
0
ENDTAB
0
TABLE
2
STYLE
5
3
100
AcDbSymbolTable
70
1
0
STYLE
5
11
100
AcDbSymbolTableRecord
100
AcDbTextStyleTableRecord
2
STANDARD
70
0
0
ENDTAB
0
TABLE
2
VIEW
5
6
100
AcDbSymbolTable
70
0
0
ENDTAB
0
TABLE
2
UCS
5
7
100
AcDbSymbolTable
70
0
0
ENDTAB
0
TABLE
2
APPID
5
9
100
AcDbSymbolTable
70
2
0
APPID
5
12
100
AcDbSymbolTableRecord
100
AcDbRegAppTableRecord
2
ACAD
70
0
0
ENDTAB
0
TABLE
2
DIMSTYLE
5
A
100
AcDbSymbolTable
70
1
0
ENDTAB
0
TABLE
2
BLOCK_RECORD
5
1
100
AcDbSymbolTable
70
1
0
BLOCK_RECORD
5
1F
100
AcDbSymbolTableRecord
100
AcDbBlockTableRecord
2
*MODEL_SPACE
0
BLOCK_RECORD
5
1B
100
AcDbSymbolTableRecord
100
AcDbBlockTableRecord
2
*PAPER_SPACE
0
ENDTAB
0
ENDSEC
0
SECTION
2
BLOCKS
0
BLOCK
5
20
100
AcDbEntity
100
AcDbBlockBegin
2
*MODEL_SPACE
0
ENDBLK
5
21
100
AcDbEntity
100
AcDbBlockEnd
0
BLOCK
5
1C
100
AcDbEntity
100
AcDbBlockBegin
2
*PAPER_SPACE
0
ENDBLK
5
1D
100
AcDbEntity
100
AcDbBlockEnd
0
ENDSEC
0
SECTION
2
ENTITIES
0
LWPOLYLINE
5
100
100
AcDbEntity
8
0
100
AcDbPolyline
90
4
70
1
43
0.0
10
732.29614256227194
20
513.437016187464
10
735.49614256227187
20
513.437016187464
10
735.49614256227187
20
483.43701618746394
10
732.29614256227194
20
483.43701618746394
0
LWPOLYLINE
5
101
100
AcDbEntity
8
0
100
AcDbPolyline
90
4
70
1
43
0.0
10
732.29614256227194
20
372.49347645717774
10
735.49614256227187
20
372.49347645717774
10
735.49614256227187
20
342.49347645717774
10
732.29614256227194
20
342.49347645717774
0
LWPOLYLINE
5
102
100
AcDbEntity
8
0
100
AcDbPolyline
90
4
70
1
43
0.0
10
1012.2961425622719
20
513.437016187464
10
1015.496142562272
20
513.437016187464
10
1015.496142562272
20
483.43701618746394
10
1012.2961425622719
20
483.43701618746394
0
LWPOLYLINE
5
103
100
AcDbEntity
8
0
100
AcDbPolyline
90
4
70
1
43
0.0
10
1012.2961425622719
20
372.49347645717774
10
1015.496142562272
20
372.49347645717774
10
1015.496142562272
20
342.49347645717774
10
1012.2961425622719
20
342.49347645717774
0
LWPOLYLINE
5
104
100
AcDbEntity
8
0
100
AcDbPolyline
90
24
70
1
43
0.0
10
935.79614256227183
20
312.27749837553091
10
808.79614256227205
20
312.27749837553091
10
808.79614256227205
20
310.06665453987148
10
808.79614256227183
20
309.13665453987142
10
805.79614256227183
20
309.13665453987147
10
805.79614256227183
20
273.42347645717786
10
805.79614256227183
20
272.49347645717785
10
543.29614256227183
20
272.49347645717785
10
543.29614256227183
20
273.42347645717786
10
543.29614256227171
20
412.78450111663352
10
475.29614256227183
20
412.78450111663352
10
475.29614256227183
20
413.71450111663358
10
475.29614256227177
20
583.43701618746388
10
1269.2961425622718
20
583.43701618746377
10
1269.2961425622718
20
413.71450111663358
10
1269.2961425622718
20
412.78450111663352
10
1201.2961425622721
20
412.78450111663352
10
1201.2961425622721
20
273.42347645717786
10
1201.2961425622721
20
272.49347645717785
10
938.79614256227205
20
272.49347645717785
10
938.79614256227205
20
273.4234764571778
10
938.79614256227183
20
309.13665453987142
10
935.79614256227183
20
309.13665453987147
10
935.79614256227183
20
310.06665453987148
0
LWPOLYLINE
5
105
100
AcDbEntity
8
0
100
AcDbPolyline
90
4
70
1
43
0.0
10
414.84659700954609
20
734.02822875146057
10
418.04659700954608
20
734.02822875146057
10
418.04659700954608
20
704.02822875146057
10
414.84659700954609
20
704.02822875146057
0
LWPOLYLINE
5
106
100
AcDbEntity
8
0
100
AcDbPolyline
90
4
70
1
43
0.0
10
694.84659700954603
20
734.02822875146057
10
698.04659700954608
20
734.02822875146057
10
698.04659700954608
20
704.02822875146057
10
694.84659700954603
20
704.02822875146057
0
LWPOLYLINE
5
107
100
AcDbEntity
8
0
100
AcDbPolyline
90
4
70
1
43
0.0
10
951.84659700954603
20
804.06462901534212
10
951.84659700954603
20
612.73501212692224
10
157.84659700954597
20
612.73501212692236
10
157.84659700954592
20
804.06462901534212
0
LWPOLYLINE
5
108
100
AcDbEntity
8
0
100
AcDbPolyline
90
4
70
1
43
0.0
10
740.57743505495159
20
193.57202194381898
10
743.77743505495141
20
193.57202194381898
10
743.77743505495141
20
163.57205222101805
10
740.57743505495159
20
163.57205222101805
0
LWPOLYLINE
5
109
100
AcDbEntity
8
0
100
AcDbPolyline
90
4
70
1
43
0.0
10
1020.5774350549516
20
193.57202194381898
10
1023.7774350549514
20
193.57202194381898
10
1023.7774350549514
20
163.57205222101805
10
1020.5774350549516
20
163.57205222101805
0
LWPOLYLINE
5
110
100
AcDbEntity
8
0
100
AcDbPolyline
90
4
70
1
43
0.0
10
1277.5774350549514
20
228.57199599193757
10
1277.5774350549514
20
128.57199599193751
10
483.57743505495142
20
128.57199599193748
10
483.57743505495137
20
228.57199599193757
0
ENDSEC
0
SECTION
2
OBJECTS
0
DICTIONARY
5
C
100
AcDbDictionary
3
ACAD_GROUP
350
D
3
ACAD_MLINESTYLE
350
17
0
DICTIONARY
5
D
100
AcDbDictionary
0
DICTIONARY
5
1A
330
C
100
AcDbDictionary
0
DICTIONARY
5
17
100
AcDbDictionary
0
ENDSEC
0
EOF
